ISO-10303-21;
HEADER;
FILE_DESCRIPTION (( 'STEP AP203' ),
    '1' );
FILE_NAME ('QB-CTZHWP-20-633-M.STEP',
    '2020-12-24T01:35:45',
    ( '' ),
    ( '' ),
    'SwSTEP 2.0',
    'SolidWorks 2020',
    '' );
FILE_SCHEMA (( 'CONFIG_CONTROL_DESIGN' ));
ENDSEC;

DATA;
#1 = EDGE_CURVE ( 'NONE', #134, #312, #190, .T. ) ;
#2 = DIRECTION ( 'NONE',  ( 0.000000000000000000, 0.000000000000000000, -1.000000000000000000 ) ) ;
#3 = CIRCLE ( 'NONE', #20, 12.69999999999999929 ) ;
#4 = FACE_OUTER_BOUND ( 'NONE', #70, .T. ) ;
#5 = LINE ( 'NONE', #155, #249 ) ;
#6 = ORIENTED_EDGE ( 'NONE', *, *, #33, .T. ) ;
#7 = EDGE_LOOP ( 'NONE', ( #31, #316, #248, #264 ) ) ;
#8 = ADVANCED_FACE ( 'NONE', ( #4 ), #129, .T. ) ;
#9 = EDGE_CURVE ( 'NONE', #221, #193, #64, .T. ) ;
#10 = ORIENTED_EDGE ( 'NONE', *, *, #241, .T. ) ;
#11 = LINE ( 'NONE', #162, #201 ) ;
#12 = CARTESIAN_POINT ( 'NONE',  ( 2.999999999999999112, 1.224646799147353256E-15, -10.00000000000000000 ) ) ;
#13 = CLOSED_SHELL ( 'NONE', ( #273, #311, #29, #232, #152, #61, #39, #8, #153, #111 ) ) ;
#14 = CARTESIAN_POINT ( 'NONE',  ( -2.500000000000000444, 0.000000000000000000, 0.000000000000000000 ) ) ;
#15 = CARTESIAN_POINT ( 'NONE',  ( -3.000000000000000444, 0.000000000000000000, 0.000000000000000000 ) ) ;
#16 = ORGANIZATION ( 'UNSPECIFIED', 'UNSPECIFIED', '' ) ;
#17 = DATE_AND_TIME ( #118, #28 ) ;
#18 = CARTESIAN_POINT ( 'NONE',  ( -1.614212418857619014, 0.000000000000000000, 0.000000000000000000 ) ) ;
#19 = APPLICATION_CONTEXT ( 'configuration controlled 3d designs of mechanical parts and assemblies' ) ;
#20 = AXIS2_PLACEMENT_3D ( 'NONE', #105, #313, #157 ) ;
#21 = LOCAL_TIME ( 9, 35, 45.00000000000000000, #309 ) ;
#22 = PERSON_AND_ORGANIZATION ( #210, #16 ) ;
#23 = DIRECTION ( 'NONE',  ( 0.000000000000000000, 0.000000000000000000, 1.000000000000000000 ) ) ;
#24 = APPROVAL_STATUS ( 'not_yet_approved' ) ;
#25 = AXIS2_PLACEMENT_3D ( 'NONE', #156, #106, #207 ) ;
#26 = DATE_AND_TIME ( #255, #21 ) ;
#27 = PERSON_AND_ORGANIZATION ( #210, #16 ) ;
#28 = LOCAL_TIME ( 9, 35, 45.00000000000000000, #243 ) ;
#29 = ADVANCED_FACE ( 'NONE', ( #98 ), #48, .F. ) ;
#30 = PLANE ( 'NONE',  #290 ) ;
#31 = ORIENTED_EDGE ( 'NONE', *, *, #308, .F. ) ;
#32 = LINE ( 'NONE', #74, #282 ) ;
#33 = EDGE_CURVE ( 'NONE', #221, #183, #277, .T. ) ;
#34 = ORIENTED_EDGE ( 'NONE', *, *, #92, .F. ) ;
#35 = ORIENTED_EDGE ( 'NONE', *, *, #100, .F. ) ;
#36 = FACE_OUTER_BOUND ( 'NONE', #209, .T. ) ;
#37 = DIRECTION ( 'NONE',  ( -1.000000000000000000, -0.000000000000000000, -0.000000000000000000 ) ) ;
#38 = CIRCLE ( 'NONE', #71, 12.69999999999999929 ) ;
#39 = ADVANCED_FACE ( 'NONE', ( #173, #253 ), #175, .F. ) ;
#40 = DIRECTION ( 'NONE',  ( 1.000000000000000000, 0.000000000000000000, 0.000000000000000000 ) ) ;
#41 = PLANE ( 'NONE',  #294 ) ;
#42 = CALENDAR_DATE ( 2020, 24, 12 ) ;
#43 = DIRECTION ( 'NONE',  ( 0.000000000000000000, 0.000000000000000000, 1.000000000000000000 ) ) ;
#44 = ORIENTED_EDGE ( 'NONE', *, *, #100, .T. ) ;
#45 = DIRECTION ( 'NONE',  ( 1.000000000000000000, 0.000000000000000000, 0.000000000000000000 ) ) ;
#46 = ORIENTED_EDGE ( 'NONE', *, *, #296, .F. ) ;
#47 = APPLICATION_PROTOCOL_DEFINITION ( 'international standard', 'config_control_design', 1994, #274 ) ;
#48 = CYLINDRICAL_SURFACE ( 'NONE', #126, 10.00000000000000000 ) ;
#49 = DATE_AND_TIME ( #150, #174 ) ;
#50 = DIRECTION ( 'NONE',  ( 1.000000000000000000, 0.000000000000000000, 0.000000000000000000 ) ) ;
#51 = APPROVAL_DATE_TIME ( #151, #198 ) ;
#52 = CYLINDRICAL_SURFACE ( 'NONE', #295, 10.00000000000000000 ) ;
#53 = LOCAL_TIME ( 9, 35, 45.00000000000000000, #89 ) ;
#54 = DIRECTION ( 'NONE',  ( 0.000000000000000000, 0.000000000000000000, 1.000000000000000000 ) ) ;
#55 = DIRECTION ( 'NONE',  ( 0.000000000000000000, 0.000000000000000000, 1.000000000000000000 ) ) ;
#56 = ORIENTED_EDGE ( 'NONE', *, *, #269, .F. ) ;
#57 = EDGE_CURVE ( 'NONE', #288, #289, #32, .T. ) ;
#58 = ORIENTED_EDGE ( 'NONE', *, *, #322, .T. ) ;
#59 = VERTEX_POINT ( 'NONE', #283 ) ;
#60 = DIRECTION ( 'NONE',  ( -1.000000000000000000, -0.000000000000000000, -0.000000000000000000 ) ) ;
#61 = ADVANCED_FACE ( 'NONE', ( #102 ), #52, .F. ) ;
#62 = CARTESIAN_POINT ( 'NONE',  ( 3.000000000000000000, 0.000000000000000000, 12.69999999999999929 ) ) ;
#63 = AXIS2_PLACEMENT_3D ( 'NONE', #213, #37, #293 ) ;
#64 = CIRCLE ( 'NONE', #238, 12.69999999999999929 ) ;
#65 = CARTESIAN_POINT ( 'NONE',  ( -3.000000000000000444, 0.000000000000000000, 10.00000000000000000 ) ) ;
#66 = AXIS2_PLACEMENT_3D ( 'NONE', #279, #50, #260 ) ;
#67 = PERSON_AND_ORGANIZATION ( #210, #16 ) ;
#68 = DIRECTION ( 'NONE',  ( -1.000000000000000000, -0.000000000000000000, -0.000000000000000000 ) ) ;
#69 = ORIENTED_EDGE ( 'NONE', *, *, #115, .F. ) ;
#70 = EDGE_LOOP ( 'NONE', ( #262, #182, #219, #46 ) ) ;
#71 = AXIS2_PLACEMENT_3D ( 'NONE', #136, #135, #292 ) ;
#72 = DIRECTION ( 'NONE',  ( -1.000000000000000000, -0.000000000000000000, -0.000000000000000000 ) ) ;
#73 = CARTESIAN_POINT ( 'NONE',  ( -3.000000000000000444, 0.000000000000000000, 0.000000000000000000 ) ) ;
#74 = CARTESIAN_POINT ( 'NONE',  ( -1.614212418857619014, 1.224646799147353256E-15, -10.00000000000000000 ) ) ;
#75 = ORIENTED_EDGE ( 'NONE', *, *, #241, .F. ) ;
#76 = ORIENTED_EDGE ( 'NONE', *, *, #326, .F. ) ;
#77 = CIRCLE ( 'NONE', #148, 12.69999999999999929 ) ;
#78 = EDGE_LOOP ( 'NONE', ( #35, #56 ) ) ;
#79 = FACE_OUTER_BOUND ( 'NONE', #315, .T. ) ;
#80 = FACE_BOUND ( 'NONE', #208, .T. ) ;
#81 = CIRCLE ( 'NONE', #184, 10.00000000000000000 ) ;
#82 = EDGE_CURVE ( 'NONE', #161, #276, #5, .T. ) ;
#83 = PRODUCT ( 'QB-CTZHWP-20-633-M', 'QB-CTZHWP-20-633-M', '', ( #97 ) ) ;
#84 =( GEOMETRIC_REPRESENTATION_CONTEXT ( 3 ) GLOBAL_UNCERTAINTY_ASSIGNED_CONTEXT ( ( #226 ) ) GLOBAL_UNIT_ASSIGNED_CONTEXT ( ( #122, #330, #123 ) ) REPRESENTATION_CONTEXT ( 'NONE', 'WORKASPACE' ) );
#85 = LINE ( 'NONE', #306, #333 ) ;
#86 = CYLINDRICAL_SURFACE ( 'NONE', #108, 10.00000000000000000 ) ;
#87 = APPROVAL_PERSON_ORGANIZATION ( #67, #198, #140 ) ;
#88 = AXIS2_PLACEMENT_3D ( 'NONE', #233, #284, #54 ) ;
#89 = COORDINATED_UNIVERSAL_TIME_OFFSET ( 8, 0, .AHEAD. ) ;
#90 = DIRECTION ( 'NONE',  ( -1.000000000000000000, -0.000000000000000000, -0.000000000000000000 ) ) ;
#91 = VECTOR ( 'NONE', #307, 1000.000000000000000 ) ;
#92 = EDGE_CURVE ( 'NONE', #288, #161, #143, .T. ) ;
#93 = ORIENTED_EDGE ( 'NONE', *, *, #57, .T. ) ;
#94 = DIRECTION ( 'NONE',  ( -1.000000000000000000, -0.000000000000000000, -0.000000000000000000 ) ) ;
#95 = CC_DESIGN_APPROVAL ( #125, ( #266 ) ) ;
#96 = ORIENTED_EDGE ( 'NONE', *, *, #57, .F. ) ;
#97 = MECHANICAL_CONTEXT ( 'NONE', #19, 'mechanical' ) ;
#98 = FACE_OUTER_BOUND ( 'NONE', #7, .T. ) ;
#99 = APPROVAL_ROLE ( '' ) ;
#100 = EDGE_CURVE ( 'NONE', #276, #289, #202, .T. ) ;
#101 = SHAPE_DEFINITION_REPRESENTATION ( #146, #254 ) ;
#102 = FACE_OUTER_BOUND ( 'NONE', #314, .T. ) ;
#103 = SECURITY_CLASSIFICATION_LEVEL ( 'unclassified' ) ;
#104 = CIRCLE ( 'NONE', #317, 10.00000000000000000 ) ;
#105 = CARTESIAN_POINT ( 'NONE',  ( 3.000000000000000000, 0.000000000000000000, 0.000000000000000000 ) ) ;
#106 = DIRECTION ( 'NONE',  ( -1.000000000000000000, -0.000000000000000000, -0.000000000000000000 ) ) ;
#107 = DIRECTION ( 'NONE',  ( -1.000000000000000000, -0.000000000000000000, -0.000000000000000000 ) ) ;
#108 = AXIS2_PLACEMENT_3D ( 'NONE', #252, #94, #165 ) ;
#109 = EDGE_LOOP ( 'NONE', ( #69, #112 ) ) ;
#110 = ORIENTED_EDGE ( 'NONE', *, *, #222, .F. ) ;
#111 = ADVANCED_FACE ( 'NONE', ( #178 ), #30, .F. ) ;
#112 = ORIENTED_EDGE ( 'NONE', *, *, #9, .F. ) ;
#113 = FACE_OUTER_BOUND ( 'NONE', #109, .T. ) ;
#114 = CYLINDRICAL_SURFACE ( 'NONE', #63, 10.00000000000000000 ) ;
#115 = EDGE_CURVE ( 'NONE', #193, #221, #3, .T. ) ;
#116 = AXIS2_PLACEMENT_3D ( 'NONE', #205, #310, #2 ) ;
#117 = CC_DESIGN_DATE_AND_TIME_ASSIGNMENT ( #49, #200, ( #177 ) ) ;
#118 = CALENDAR_DATE ( 2020, 24, 12 ) ;
#119 = FACE_OUTER_BOUND ( 'NONE', #318, .T. ) ;
#120 = DATE_TIME_ROLE ( 'creation_date' ) ;
#121 = CARTESIAN_POINT ( 'NONE',  ( 2.500000000000000444, 10.00000000000000000, 0.000000000000000000 ) ) ;
#122 =( LENGTH_UNIT ( ) NAMED_UNIT ( * ) SI_UNIT ( .MILLI., .METRE. ) );
#123 =( NAMED_UNIT ( * ) SI_UNIT ( $, .STERADIAN. ) SOLID_ANGLE_UNIT ( ) );
#124 = DIRECTION ( 'NONE',  ( -1.000000000000000000, -0.000000000000000000, -0.000000000000000000 ) ) ;
#125 = APPROVAL ( #224, 'UNSPECIFIED' ) ;
#126 = AXIS2_PLACEMENT_3D ( 'NONE', #199, #72, #331 ) ;
#127 = APPROVAL_PERSON_ORGANIZATION ( #280, #239, #99 ) ;
#128 = DIRECTION ( 'NONE',  ( 0.000000000000000000, 0.000000000000000000, -1.000000000000000000 ) ) ;
#129 = CYLINDRICAL_SURFACE ( 'NONE', #25, 12.69999999999999929 ) ;
#130 = CARTESIAN_POINT ( 'NONE',  ( -1.614212418857619014, 0.000000000000000000, 0.000000000000000000 ) ) ;
#131 = VERTEX_POINT ( 'NONE', #12 ) ;
#132 = ORIENTED_EDGE ( 'NONE', *, *, #164, .F. ) ;
#133 = CC_DESIGN_PERSON_AND_ORGANIZATION_ASSIGNMENT ( #27, #172, ( #177 ) ) ;
#134 = VERTEX_POINT ( 'NONE', #265 ) ;
#135 = DIRECTION ( 'NONE',  ( -1.000000000000000000, -0.000000000000000000, -0.000000000000000000 ) ) ;
#136 = CARTESIAN_POINT ( 'NONE',  ( -3.000000000000000000, 0.000000000000000000, 0.000000000000000000 ) ) ;
#137 = APPLICATION_PROTOCOL_DEFINITION ( 'international standard', 'config_control_design', 1994, #19 ) ;
#138 = CARTESIAN_POINT ( 'NONE',  ( 2.999999999999999112, 0.000000000000000000, 0.000000000000000000 ) ) ;
#139 = CC_DESIGN_PERSON_AND_ORGANIZATION_ASSIGNMENT ( #257, #196, ( #180 ) ) ;
#140 = APPROVAL_ROLE ( '' ) ;
#141 = DIRECTION ( 'NONE',  ( 0.000000000000000000, 0.000000000000000000, 1.000000000000000000 ) ) ;
#142 = ORIENTED_EDGE ( 'NONE', *, *, #164, .T. ) ;
#143 = CIRCLE ( 'NONE', #116, 10.00000000000000000 ) ;
#144 = DIRECTION ( 'NONE',  ( -1.000000000000000000, -0.000000000000000000, -0.000000000000000000 ) ) ;
#145 = EDGE_CURVE ( 'NONE', #272, #312, #11, .T. ) ;
#146 = PRODUCT_DEFINITION_SHAPE ( 'NONE', 'NONE',  #266 ) ;
#147 = CARTESIAN_POINT ( 'NONE',  ( -1.614212418857619014, 1.224646799147353256E-15, -10.00000000000000000 ) ) ;
#148 = AXIS2_PLACEMENT_3D ( 'NONE', #192, #168, #43 ) ;
#149 = CARTESIAN_POINT ( 'NONE',  ( -1.614212418857619014, 1.555301434917138433E-15, -12.69999999999999929 ) ) ;
#150 = CALENDAR_DATE ( 2020, 24, 12 ) ;
#151 = DATE_AND_TIME ( #332, #323 ) ;
#152 = ADVANCED_FACE ( 'NONE', ( #36 ), #114, .F. ) ;
#153 = ADVANCED_FACE ( 'NONE', ( #113, #80 ), #240, .F. ) ;
#154 = APPROVAL_PERSON_ORGANIZATION ( #22, #125, #197 ) ;
#155 = CARTESIAN_POINT ( 'NONE',  ( -1.614212418857619014, 0.000000000000000000, 10.00000000000000000 ) ) ;
#156 = CARTESIAN_POINT ( 'NONE',  ( -1.614212418857619014, 0.000000000000000000, 0.000000000000000000 ) ) ;
#157 = DIRECTION ( 'NONE',  ( 0.000000000000000000, 0.000000000000000000, 1.000000000000000000 ) ) ;
#158 = ORIENTED_EDGE ( 'NONE', *, *, #308, .T. ) ;
#159 = AXIS2_PLACEMENT_3D ( 'NONE', #187, #163, #212 ) ;
#160 = ORIENTED_EDGE ( 'NONE', *, *, #82, .T. ) ;
#161 = VERTEX_POINT ( 'NONE', #188 ) ;
#162 = CARTESIAN_POINT ( 'NONE',  ( -1.614212418857619014, 0.000000000000000000, 10.00000000000000000 ) ) ;
#163 = DIRECTION ( 'NONE',  ( -1.000000000000000000, 0.000000000000000000, -0.000000000000000000 ) ) ;
#164 = EDGE_CURVE ( 'NONE', #59, #183, #38, .T. ) ;
#165 = DIRECTION ( 'NONE',  ( 0.000000000000000000, 0.000000000000000000, 1.000000000000000000 ) ) ;
#166 = DIRECTION ( 'NONE',  ( 0.000000000000000000, 0.000000000000000000, 1.000000000000000000 ) ) ;
#167 = APPROVAL_STATUS ( 'not_yet_approved' ) ;
#168 = DIRECTION ( 'NONE',  ( -1.000000000000000000, -0.000000000000000000, -0.000000000000000000 ) ) ;
#169 = ORIENTED_EDGE ( 'NONE', *, *, #322, .F. ) ;
#170 = PERSON_AND_ORGANIZATION_ROLE ( 'design_owner' ) ;
#171 = ORIENTED_EDGE ( 'NONE', *, *, #1, .F. ) ;
#172 = PERSON_AND_ORGANIZATION_ROLE ( 'classification_officer' ) ;
#173 = FACE_BOUND ( 'NONE', #78, .T. ) ;
#174 = LOCAL_TIME ( 9, 35, 45.00000000000000000, #278 ) ;
#175 = PLANE ( 'NONE',  #66 ) ;
#176 = PRODUCT_RELATED_PRODUCT_CATEGORY ( 'detail', '', ( #83 ) ) ;
#177 = SECURITY_CLASSIFICATION ( '', '', #103 ) ;
#178 = FACE_OUTER_BOUND ( 'NONE', #234, .T. ) ;
#179 = ORIENTED_EDGE ( 'NONE', *, *, #222, .T. ) ;
#180 = PRODUCT_DEFINITION_FORMATION_WITH_SPECIFIED_SOURCE ( 'ANY', '', #83, .NOT_KNOWN. ) ;
#181 = DIRECTION ( 'NONE',  ( -1.000000000000000000, -0.000000000000000000, -0.000000000000000000 ) ) ;
#182 = ORIENTED_EDGE ( 'NONE', *, *, #9, .T. ) ;
#183 = VERTEX_POINT ( 'NONE', #321 ) ;
#184 = AXIS2_PLACEMENT_3D ( 'NONE', #15, #68, #246 ) ;
#185 = ORIENTED_EDGE ( 'NONE', *, *, #269, .T. ) ;
#186 = CARTESIAN_POINT ( 'NONE',  ( 2.500000000000000888, 0.000000000000000000, 0.000000000000000000 ) ) ;
#187 = CARTESIAN_POINT ( 'NONE',  ( 2.999999999999999112, 12.69999999999999929, 0.000000000000000000 ) ) ;
#188 = CARTESIAN_POINT ( 'NONE',  ( -2.500000000000000444, 0.000000000000000000, 10.00000000000000000 ) ) ;
#189 = DIRECTION ( 'NONE',  ( -0.000000000000000000, 0.000000000000000000, 1.000000000000000000 ) ) ;
#190 = CIRCLE ( 'NONE', #88, 10.00000000000000000 ) ;
#191 = DATE_AND_TIME ( #42, #53 ) ;
#192 = CARTESIAN_POINT ( 'NONE',  ( -3.000000000000000000, 0.000000000000000000, 0.000000000000000000 ) ) ;
#193 = VERTEX_POINT ( 'NONE', #62 ) ;
#194 = VECTOR ( 'NONE', #144, 1000.000000000000000 ) ;
#195 = PERSON_AND_ORGANIZATION ( #210, #16 ) ;
#196 = PERSON_AND_ORGANIZATION_ROLE ( 'design_supplier' ) ;
#197 = APPROVAL_ROLE ( '' ) ;
#198 = APPROVAL ( #167, 'UNSPECIFIED' ) ;
#199 = CARTESIAN_POINT ( 'NONE',  ( -1.614212418857619014, 0.000000000000000000, 0.000000000000000000 ) ) ;
#200 = DATE_TIME_ROLE ( 'classification_date' ) ;
#201 = VECTOR ( 'NONE', #267, 1000.000000000000000 ) ;
#202 = CIRCLE ( 'NONE', #242, 10.00000000000000000 ) ;
#203 = APPROVAL_DATE_TIME ( #26, #239 ) ;
#204 = CC_DESIGN_PERSON_AND_ORGANIZATION_ASSIGNMENT ( #297, #245, ( #266 ) ) ;
#205 = CARTESIAN_POINT ( 'NONE',  ( -2.500000000000000444, 0.000000000000000000, 0.000000000000000000 ) ) ;
#206 = DIRECTION ( 'NONE',  ( 1.000000000000000000, 0.000000000000000000, 0.000000000000000000 ) ) ;
#207 = DIRECTION ( 'NONE',  ( 0.000000000000000000, 0.000000000000000000, 1.000000000000000000 ) ) ;
#208 = EDGE_LOOP ( 'NONE', ( #10, #158 ) ) ;
#209 = EDGE_LOOP ( 'NONE', ( #329, #75, #211, #179 ) ) ;
#210 = PERSON ( 'UNSPECIFIED', 'UNSPECIFIED', 'UNSPECIFIED', ('UNSPECIFIED'), ('UNSPECIFIED'), ('UNSPECIFIED') ) ;
#211 = ORIENTED_EDGE ( 'NONE', *, *, #145, .T. ) ;
#212 = DIRECTION ( 'NONE',  ( -0.000000000000000000, 0.000000000000000000, 1.000000000000000000 ) ) ;
#213 = CARTESIAN_POINT ( 'NONE',  ( -1.614212418857619014, 0.000000000000000000, 0.000000000000000000 ) ) ;
#214 = AXIS2_PLACEMENT_3D ( 'NONE', #220, #327, #40 ) ;
#215 = APPROVAL_DATE_TIME ( #17, #125 ) ;
#216 = CARTESIAN_POINT ( 'NONE',  ( -2.500000000000000444, 1.224646799147353256E-15, -10.00000000000000000 ) ) ;
#217 = CC_DESIGN_PERSON_AND_ORGANIZATION_ASSIGNMENT ( #227, #335, ( #180 ) ) ;
#218 = DIRECTION ( 'NONE',  ( -1.000000000000000000, 0.000000000000000000, -0.000000000000000000 ) ) ;
#219 = ORIENTED_EDGE ( 'NONE', *, *, #326, .T. ) ;
#220 = CARTESIAN_POINT ( 'NONE',  ( 0.000000000000000000, 0.000000000000000000, 0.000000000000000000 ) ) ;
#221 = VERTEX_POINT ( 'NONE', #237 ) ;
#222 = EDGE_CURVE ( 'NONE', #312, #134, #104, .T. ) ;
#223 = EDGE_LOOP ( 'NONE', ( #142, #263 ) ) ;
#224 = APPROVAL_STATUS ( 'not_yet_approved' ) ;
#225 = CC_DESIGN_APPROVAL ( #198, ( #180 ) ) ;
#226 = UNCERTAINTY_MEASURE_WITH_UNIT (LENGTH_MEASURE( 1.000000000000000082E-05 ), #122, 'distance_accuracy_value', 'NONE');
#227 = PERSON_AND_ORGANIZATION ( #210, #16 ) ;
#228 = CARTESIAN_POINT ( 'NONE',  ( -2.500000000000000444, 10.00000000000000000, 0.000000000000000000 ) ) ;
#229 = AXIS2_PLACEMENT_3D ( 'NONE', #138, #328, #302 ) ;
#230 = ORIENTED_EDGE ( 'NONE', *, *, #115, .T. ) ;
#231 = DIRECTION ( 'NONE',  ( -1.000000000000000000, -0.000000000000000000, -0.000000000000000000 ) ) ;
#232 = ADVANCED_FACE ( 'NONE', ( #79 ), #41, .F. ) ;
#233 = CARTESIAN_POINT ( 'NONE',  ( 2.500000000000000888, 0.000000000000000000, 0.000000000000000000 ) ) ;
#234 = EDGE_LOOP ( 'NONE', ( #169, #34 ) ) ;
#235 = MANIFOLD_SOLID_BREP ( 'Ðý×', #13 ) ;
#236 = EDGE_LOOP ( 'NONE', ( #58, #93, #185, #303 ) ) ;
#237 = CARTESIAN_POINT ( 'NONE',  ( 3.000000000000000000, 1.555301434917138433E-15, -12.69999999999999929 ) ) ;
#238 = AXIS2_PLACEMENT_3D ( 'NONE', #259, #124, #23 ) ;
#239 = APPROVAL ( #24, 'UNSPECIFIED' ) ;
#240 = PLANE ( 'NONE',  #159 ) ;
#241 = EDGE_CURVE ( 'NONE', #272, #131, #299, .T. ) ;
#242 = AXIS2_PLACEMENT_3D ( 'NONE', #73, #258, #55 ) ;
#243 = COORDINATED_UNIVERSAL_TIME_OFFSET ( 8, 0, .AHEAD. ) ;
#244 = CARTESIAN_POINT ( 'NONE',  ( 2.999999999999999112, 0.000000000000000000, 10.00000000000000000 ) ) ;
#245 = PERSON_AND_ORGANIZATION_ROLE ( 'creator' ) ;
#246 = DIRECTION ( 'NONE',  ( 0.000000000000000000, 0.000000000000000000, 1.000000000000000000 ) ) ;
#247 = FACE_OUTER_BOUND ( 'NONE', #236, .T. ) ;
#248 = ORIENTED_EDGE ( 'NONE', *, *, #1, .T. ) ;
#249 = VECTOR ( 'NONE', #107, 1000.000000000000000 ) ;
#250 = COORDINATED_UNIVERSAL_TIME_OFFSET ( 8, 0, .AHEAD. ) ;
#251 = AXIS2_PLACEMENT_3D ( 'NONE', #14, #45, #301 ) ;
#252 = CARTESIAN_POINT ( 'NONE',  ( -1.614212418857619014, 0.000000000000000000, 0.000000000000000000 ) ) ;
#253 = FACE_OUTER_BOUND ( 'NONE', #223, .T. ) ;
#254 = ADVANCED_BREP_SHAPE_REPRESENTATION ( 'QB-CTZHWP-20-633-M', ( #235, #214 ), #84 ) ;
#255 = CALENDAR_DATE ( 2020, 24, 12 ) ;
#256 = CC_DESIGN_SECURITY_CLASSIFICATION ( #177, ( #180 ) ) ;
#257 = PERSON_AND_ORGANIZATION ( #210, #16 ) ;
#258 = DIRECTION ( 'NONE',  ( -1.000000000000000000, -0.000000000000000000, -0.000000000000000000 ) ) ;
#259 = CARTESIAN_POINT ( 'NONE',  ( 3.000000000000000000, 0.000000000000000000, 0.000000000000000000 ) ) ;
#260 = DIRECTION ( 'NONE',  ( 0.000000000000000000, 0.000000000000000000, -1.000000000000000000 ) ) ;
#261 = CC_DESIGN_PERSON_AND_ORGANIZATION_ASSIGNMENT ( #195, #170, ( #83 ) ) ;
#262 = ORIENTED_EDGE ( 'NONE', *, *, #33, .F. ) ;
#263 = ORIENTED_EDGE ( 'NONE', *, *, #296, .T. ) ;
#264 = ORIENTED_EDGE ( 'NONE', *, *, #145, .F. ) ;
#265 = CARTESIAN_POINT ( 'NONE',  ( 2.500000000000000888, 1.224646799147353256E-15, -10.00000000000000000 ) ) ;
#266 = PRODUCT_DEFINITION ( 'UNKNOWN', '', #180, #281 ) ;
#267 = DIRECTION ( 'NONE',  ( -1.000000000000000000, -0.000000000000000000, -0.000000000000000000 ) ) ;
#268 = CARTESIAN_POINT ( 'NONE',  ( 2.999999999999999112, 0.000000000000000000, 0.000000000000000000 ) ) ;
#269 = EDGE_CURVE ( 'NONE', #289, #276, #81, .T. ) ;
#270 = LINE ( 'NONE', #147, #194 ) ;
#271 = CARTESIAN_POINT ( 'NONE',  ( -3.000000000000000444, 1.224646799147353256E-15, -10.00000000000000000 ) ) ;
#272 = VERTEX_POINT ( 'NONE', #244 ) ;
#273 = ADVANCED_FACE ( 'NONE', ( #119 ), #298, .T. ) ;
#274 = APPLICATION_CONTEXT ( 'configuration controlled 3d designs of mechanical parts and assemblies' ) ;
#275 = AXIS2_PLACEMENT_3D ( 'NONE', #18, #90, #141 ) ;
#276 = VERTEX_POINT ( 'NONE', #65 ) ;
#277 = LINE ( 'NONE', #149, #91 ) ;
#278 = COORDINATED_UNIVERSAL_TIME_OFFSET ( 8, 0, .AHEAD. ) ;
#279 = CARTESIAN_POINT ( 'NONE',  ( -3.000000000000000000, 10.00000000000000000, 0.000000000000000000 ) ) ;
#280 = PERSON_AND_ORGANIZATION ( #210, #16 ) ;
#281 = DESIGN_CONTEXT ( 'detailed design', #274, 'design' ) ;
#282 = VECTOR ( 'NONE', #181, 1000.000000000000000 ) ;
#283 = CARTESIAN_POINT ( 'NONE',  ( -3.000000000000000000, 0.000000000000000000, 12.69999999999999929 ) ) ;
#284 = DIRECTION ( 'NONE',  ( -1.000000000000000000, -0.000000000000000000, -0.000000000000000000 ) ) ;
#285 = CIRCLE ( 'NONE', #251, 10.00000000000000000 ) ;
#286 = CC_DESIGN_DATE_AND_TIME_ASSIGNMENT ( #191, #120, ( #266 ) ) ;
#287 = DIRECTION ( 'NONE',  ( 0.000000000000000000, 0.000000000000000000, 1.000000000000000000 ) ) ;
#288 = VERTEX_POINT ( 'NONE', #216 ) ;
#289 = VERTEX_POINT ( 'NONE', #271 ) ;
#290 = AXIS2_PLACEMENT_3D ( 'NONE', #228, #206, #128 ) ;
#291 = ORIENTED_EDGE ( 'NONE', *, *, #92, .T. ) ;
#292 = DIRECTION ( 'NONE',  ( 0.000000000000000000, 0.000000000000000000, 1.000000000000000000 ) ) ;
#293 = DIRECTION ( 'NONE',  ( 0.000000000000000000, 0.000000000000000000, 1.000000000000000000 ) ) ;
#294 = AXIS2_PLACEMENT_3D ( 'NONE', #121, #218, #189 ) ;
#295 = AXIS2_PLACEMENT_3D ( 'NONE', #130, #231, #287 ) ;
#296 = EDGE_CURVE ( 'NONE', #183, #59, #77, .T. ) ;
#297 = PERSON_AND_ORGANIZATION ( #210, #16 ) ;
#298 = CYLINDRICAL_SURFACE ( 'NONE', #275, 12.69999999999999929 ) ;
#299 = CIRCLE ( 'NONE', #229, 10.00000000000000000 ) ;
#300 = CC_DESIGN_APPROVAL ( #239, ( #177 ) ) ;
#301 = DIRECTION ( 'NONE',  ( 0.000000000000000000, 0.000000000000000000, -1.000000000000000000 ) ) ;
#302 = DIRECTION ( 'NONE',  ( 0.000000000000000000, 0.000000000000000000, 1.000000000000000000 ) ) ;
#303 = ORIENTED_EDGE ( 'NONE', *, *, #82, .F. ) ;
#304 = AXIS2_PLACEMENT_3D ( 'NONE', #268, #325, #166 ) ;
#305 = DIRECTION ( 'NONE',  ( -1.000000000000000000, -0.000000000000000000, -0.000000000000000000 ) ) ;
#306 = CARTESIAN_POINT ( 'NONE',  ( -1.614212418857619014, 0.000000000000000000, 12.69999999999999929 ) ) ;
#307 = DIRECTION ( 'NONE',  ( -1.000000000000000000, -0.000000000000000000, -0.000000000000000000 ) ) ;
#308 = EDGE_CURVE ( 'NONE', #131, #272, #320, .T. ) ;
#309 = COORDINATED_UNIVERSAL_TIME_OFFSET ( 8, 0, .AHEAD. ) ;
#310 = DIRECTION ( 'NONE',  ( 1.000000000000000000, 0.000000000000000000, 0.000000000000000000 ) ) ;
#311 = ADVANCED_FACE ( 'NONE', ( #247 ), #86, .F. ) ;
#312 = VERTEX_POINT ( 'NONE', #324 ) ;
#313 = DIRECTION ( 'NONE',  ( -1.000000000000000000, -0.000000000000000000, -0.000000000000000000 ) ) ;
#314 = EDGE_LOOP ( 'NONE', ( #96, #291, #160, #44 ) ) ;
#315 = EDGE_LOOP ( 'NONE', ( #110, #171 ) ) ;
#316 = ORIENTED_EDGE ( 'NONE', *, *, #334, .T. ) ;
#317 = AXIS2_PLACEMENT_3D ( 'NONE', #186, #60, #319 ) ;
#318 = EDGE_LOOP ( 'NONE', ( #230, #6, #132, #76 ) ) ;
#319 = DIRECTION ( 'NONE',  ( 0.000000000000000000, 0.000000000000000000, 1.000000000000000000 ) ) ;
#320 = CIRCLE ( 'NONE', #304, 10.00000000000000000 ) ;
#321 = CARTESIAN_POINT ( 'NONE',  ( -3.000000000000000000, 1.555301434917138433E-15, -12.69999999999999929 ) ) ;
#322 = EDGE_CURVE ( 'NONE', #161, #288, #285, .T. ) ;
#323 = LOCAL_TIME ( 9, 35, 45.00000000000000000, #250 ) ;
#324 = CARTESIAN_POINT ( 'NONE',  ( 2.500000000000000888, 0.000000000000000000, 10.00000000000000000 ) ) ;
#325 = DIRECTION ( 'NONE',  ( -1.000000000000000000, -0.000000000000000000, -0.000000000000000000 ) ) ;
#326 = EDGE_CURVE ( 'NONE', #193, #59, #85, .T. ) ;
#327 = DIRECTION ( 'NONE',  ( 0.000000000000000000, 0.000000000000000000, 1.000000000000000000 ) ) ;
#328 = DIRECTION ( 'NONE',  ( -1.000000000000000000, -0.000000000000000000, -0.000000000000000000 ) ) ;
#329 = ORIENTED_EDGE ( 'NONE', *, *, #334, .F. ) ;
#330 =( NAMED_UNIT ( * ) PLANE_ANGLE_UNIT ( ) SI_UNIT ( $, .RADIAN. ) );
#331 = DIRECTION ( 'NONE',  ( 0.000000000000000000, 0.000000000000000000, 1.000000000000000000 ) ) ;
#332 = CALENDAR_DATE ( 2020, 24, 12 ) ;
#333 = VECTOR ( 'NONE', #305, 1000.000000000000000 ) ;
#334 = EDGE_CURVE ( 'NONE', #131, #134, #270, .T. ) ;
#335 = PERSON_AND_ORGANIZATION_ROLE ( 'creator' ) ;
ENDSEC;
END-ISO-10303-21;
